1. Этот раздел не предназначен для продаж.

Вес резины

Тема в разделе "Резина, диски, гусеницы, J-Wheels", создана пользователем Тимошка, 13 ноя 2012.

  1. Тимошка

    Тимошка Постоянный форумчанин

    Вступление:
    5 ноя 2011
    Сообщения:
    716
    Решил собрать все данные по весу резины в одну статью ,так как вес является важным критерием при выборе резины:cool:
    -------------------------------------------------------------
    ITP
    MUD LITE XXL
    30x10-12 ------------------------ 15,0 кг.
    30x12-12 ------------------------ 16,9 кг.
    30x10-14 ------------------------ 15,5 кг.
    30x12-14 ------------------------ 17,0 кг.
    MUD LITE XL
    25x8-12 -------------------- 10,9кг.
    25x10-12 ------------------- 13,2кг.
    25x12-12 ------------------- 11,8кг.
    26x9-12 -------------------- 10,1кг.
    26x10-12 ------------------- 10,2кг.
    26x12-12 ------------------- 12,3кг.
    27x9-12 --------------------- 11,4кг.
    27x10-12 ------------------- 12,5кг.
    27x12-12 ------------------- 14,2кг.
    28x10-12 ------------------- 12,3кг.
    28x12-12 ------------------- 13,6кг.
    27x10-14 ------------------- 12,7кг.
    27x12-14 ------------------- 14,1кг.
    MUD LITE XTR
    25x8-12 ---------------------- 10,3кг.
    25x10-12 --------------------- 12,5кг.
    26x9-12 ----------------------- 12,2кг.
    26x11-12---------------------- 14.7кг.
    27x9-12 ----------------------- 12,7кг.
    27x11-12 ---------------------- 15.7кг.
    27x9-14 ----------------------- 12,1кг
    27x11-14 ---------------------- 15.1кг.
    MUD LITE AT
    24-8-12--------------------8.2кг.
    25x8-12 -------------------- 6.8кг.
    25x10-12 ------------------- 8.8кг.
    MAYHEM
    25-8-12 -------------------9.7кг.
    25-10-12 -------------------10.4кг.
    26-9-12 -------------------11.25кг.
    26-11-12 -------------------12.15кг.
    MEGA MAYHEM
    27x9-12 --------------------- 13,7кг.
    27x11-12 ------------------- 15,3кг.
    28x9-12 ------------------- 14,7кг.
    28x11-12 ------------------- 15,6кг.
    27x9-14 ------------------- 12,8кг.
    27x11-14 ------------------- 15кг.
    28x9-14 ------------------- 13,5кг.
    28x11-14 ------------------- 15,1кг.
    Monster Mayhem
    30x9-14 ------------------------ 17.2 кг.
    30x10-14 ------------------------ 17,9 кг.
    589
    25x8-12 ------------------------ 9,1кг.
    25x10-12 ---------------------- 11,8кг.
    26x9-12 ------------------------ 12,3кг.
    26x12-12 ----------------------- 14,5кг.
    27x9-12 ------------------------ 12,9кг.
    27x11-12----------------------- 14,1кг.
    28x9-12 ------------------------ 12,5кг.
    28x11-12 ---------------------- 14,3кг.
    27x9-14 ------------------------ 12,1кг.
    27x11-14----------------------- 13,2кг.
    Terracross
    25x8-12 -------------------- 8,1кг.
    25x10-12 ------------------- 10,8кг.
    26x9-12 -------------------- 10кг.
    26x11-12 ------------------- 12,2кг.
    26x9-14 -------------------- 10.7кг.
    26x11-14 ------------------- 13,9кг.
    BajaCross
    25x8-12 -------------------- 10,2кг.
    25x10-12 ------------------- 12,2кг.
    26x9-12 -------------------- 12.5кг.
    26x11-12 ------------------- 15кг.
    26x10-14 -------------------- 11.9кг.
    26x11-14 ------------------- 12,9кг.
    28x10-14 -------------------- 14.5кг.
    TundraCross
    25x9-12 -------------------- 8.5кг.
    25x10-12 ------------------- 8.8кг.
    HOLESHOT
    SXS
    25X9-12------------------- 10.2кг.
    25-11-12------------------- 12.2кг.
    ATR
    25X8-12------------------- 8.1кг.
    25X10-12------------------- 9.5кг.
    UltraCross
    26x10-15-------------------12,3кг.
    Black water Evolution
    25x8-12--------------------11,6кг.
    25x11-12-------------------12,9кг.
    26x9-12--------------------12,2кг.
    26x11-12-------------------13,7кг.
    27x9-12--------------------12,4кг.
    27x11-12-------------------14кг.
    27x9-14--------------------12,6кг.
    27x11-14-------------------14,1кг.
    28x10-12------------------- 14 кг.
    28x9-14------------------- 13 кг.
    28x10-14 -------------------14 кг.
    30x10-12 -------------------15 кг.
    30x10-14------------------- 14 кг.
    30x10-15 -------------------14,5 кг.
    900 XCT
    27x9-12--------------------11,25кг.
    27x11-12-------------------12,15кг.

    -------------------------------------------------------------

    Gorilla
    Silverback
    27x10-12 -------------------- 13,5кг.
    27x12-12 ------------------- 17,5кг.
    28x10-12 ------------------- 15.3кг.
    28x12-12 ------------------- 18.9кг.
    30x10-12 -------------------20кг
    30x9-14 -------------------17.1кг
    30x11-14 -------------------19.35кг
    32x10-14-------------------23.4кг

    -------------------------------------------------------------

    Kenda
    299 Bearclaw
    25x8-12 ------------------- 8,2кг.
    25x10-12 ------------------ 12,7кг.
    25x12.5-12 ---------------- 14,1кг.
    26x9-12 ------------------- 10,9кг.
    26x12-12 ------------------ 16кг.
    27x10-12 ----------------- 11,8кг.
    27x12-12 ------------------ 16,4кг.
    BEARCLAW HTR
    25X8-12------------------9.45 кг.
    25X10-12------------------ 11.4кг.
    26X9-12------------------ 10.5кг.
    26X11-12------------------13.9 кг.
    27X9-12------------------ 11.2кг.
    27X11-12------------------ 14.2кг.
    26X9-14------------------11.25кг.
    26X11-14------------------13.2 кг.
    Executioner
    25x8-12 ----------------- 9,1кг.
    25x10-12----------------- 10,1кг.
    26x10-12 ---------------- 15кг.
    26x12-12 ---------------- 16кг.
    27x10-12 ---------------- 16кг.
    27x12-12 ---------------- 16,7кг.
    BOUNTY HUNTER UTV
    25X8-12 ----------------10кг.
    25X10-12----------------12.8кг.
    26X9-12----------------10.9кг.
    26X11-12----------------13.2кг.
    27X9-12----------------10.6кг.
    27X11-12---------------- 13кг.
    26X9-14 ----------------10.9кг.
    26X11-14---------------- 13.3кг.

    -------------------------------------------------------------------

    Maxxis
    Mud bug radial
    25x8-12--------------------- 8.3 кг.
    25x10-12--------------------- 10.0 кг.
    26x9-12--------------------- 8.6 кг.
    26x11-12--------------------- 11.0 кг.
    26x9-14--------------------- 9.1 кг.
    26x11-14--------------------- 11.2 кг.
    Bighorn
    25x8-12--------------------- 9.6 кг.
    25x10-12--------------------- 11.7 кг.
    26х8-12------------------------8,8 кг.
    26х10-12--------------------- 11,3 кг.
    26x9-12--------------------- 10.3 кг.
    26x12-12--------------------- 13.7 кг.
    27x9-12--------------------- 11.4 кг.
    27x12-12--------------------- 14кг.
    26x9-14--------------------- 10.9 кг.
    26x11-14--------------------- 12.4 кг.
    28x10-14---------------------12.6кг.
    30x10-14---------------------14кг.
    Bighorn 2.0
    25х8-12 ---------------------8.2кг.
    25х10-12 ---------------------10.2кг.
    26х9-12 ---------------------9.54кг.
    26х11-12 --------------------- 11.5кг.
    26х11-14 ---------------------12.2кг.
    28х10-12 ---------------------12.6кг.
    28х9-14 ---------------------10.1кг.
    28x11-14 ---------------------12.6кг.
    Zilla
    25X8-12--------------------- 6,6 кг.
    25X8-12----------------------8,8 кг.
    26X9-12----------------------9,2 кг.
    27X9-12----------------------9,8 кг.
    28X10-12-------------------11,8 кг.
    26X9-14---------------------9,4 кг.
    27X10-14-------------------10,4 кг.
    28X9-14--------------------10,8 кг.
    25X11-10---------------------8,8 кг.
    25X10-12---------------------8,3 кг.
    25X10-12---------------------9,6 кг.
    26X11-12--------------------10,8 кг.
    27X11-12---------------------11,0 кг.
    28X12-12---------------------12,5 кг.
    26X11-14---------------------10,8 кг.
    27X12-14---------------------12,0 кг.
    28X11-14---------------------12,1 кг.
    Mudzilla
    25x8-12---------------------11.2 кг.
    25x10-12---------------------13.3 кг.
    26x9-12---------------------12.6 кг.
    26x12-12---------------------15.5 кг.
    27x9-12---------------------12.8 кг.
    27x12-12---------------------17.4 кг.
    28x8-12---------------------13.2 кг.
    28x10-12---------------------16.2 кг.
    28x12-12---------------------18.7 кг.
    30x9-14---------------------17.3 кг.
    30x11-14---------------------20.0 кг.
    Mudbug
    25x8-12---------------------8.9 кг.
    26x10-12---------------------11.1 кг.
    27x8-12---------------------9.8 кг.
    27x10-12---------------------10.6 кг.
    28x10-12---------------------11.6 кг.
    25x10-12---------------------10.3 кг.
    26x12-12---------------------12.8 кг.
    27x12-12---------------------12.8 кг.
    28x12-12---------------------13.8 кг.
    Vipr UTV
    25х8-12--------------------- 9кг.
    25х10-12 ---------------------10.8кг.
    26х9-12--------------------- 10.2кг.
    26х11-12 ---------------------11.8кг.
    27х9-14 --------------------- 11.7кг.
    27х11-14--------------------- 13.4кг.
    -------------------------------------------------------------------

    Deestone
    936, он же Dirt Devil, он же Mudcrusher, он же Дьявол:
    26x10-12 --------------------- 12,5кг.
    26x12-12 --------------------- 15,2кг.
    27x10-12 --------------------- 13,3кг.
    27x12-12 --------------------- 15,3кг.
    28x10-12 ---------------------13.8кг.
    28x12-12 ---------------------15.6кг.
    932 Swamp Witch, она же Болотная Ведьма
    26x10-12 --------------------- 12,3кг
    26х12-12 --------------------- 15,1кг
    27x10-12 --------------------- 13,6кг
    27х12-12 --------------------- 15,0кг
    28x10-12 --------------------- 14,5кг
    28х12-12 --------------------- 17,1кг

    -------------------------------------------------------------------

    Interco
    Swamp Lite
    26X12- 12 ---------------------13.95кг
    26X10-12---------------------12.15кг
    26X9-12---------------------11.7кг
    27X9- 12---------------------12.2кг
    27X10-12--------------------13.05кг
    27X12-12---------------------13.5кг
    28X10-12---------------------17.1кг
    29.5X10- 12---------------------18кг
    27x9-14 --------------------- 12.15 кг
    27x11-14--------------------- 13.95 кг
    28x9-14 --------------------- 12.5 кг
    28x11-14--------------------- 15.5 кг
    Black mamba
    27X10-12---------------------24.75кг
    30X10-12---------------------29.7кг
    30X10-14---------------------29.5кг
    32.5X10-14---------------------31.5кг
    MAMBA LITE
    25X8-12---------------------13кг
    25X10-12 ---------------------15.3кг
    26X10-12 ---------------------17.5кг
    26X12-12 ---------------------20.2кг
    27X9-12--------------------- 17.55кг
    27X11-12 ---------------------20.25кг
    30X8.50-12---------------------20.7кг
    30X8.50-14---------------------20.7кг
    TSL Vampire
    26X9.5-12 ---------------------10.8кг
    26X12-12 ---------------------14.4кг
    27X10-12 ---------------------11.25кг
    27X12-12--------------------- 14.6кг
    28X10-12 ---------------------16.65кг
    TSL VAMPIRE ASX
    26X9.50-12 ---------------------12.2кг
    26X13.00-12 ---------------------16.2кг
    INTERFORCE ATV
    30X8-12---------------------15.3кг
    30X10-12---------------------18.4кг
    27X7.75-14---------------------11.3кг
    30X8-14--------------------- 14.8кг
    30X10-14 ---------------------18.4кг
    RADIAL REPTILE
    25X8-12---------------------10кг
    25X10-12---------------------12.2кг
    26X9-12---------------------11.7кг
    26X11-12---------------------13.5кг
    27X9-12---------------------13кг
    27X11-12---------------------14.85кг
    26X12-14---------------------15.4кг
    26X10-14---------------------13кг
    27X9-14---------------------12.6кг
    27X11-14---------------------15.3кг
    -------------------------------------------------------------------

    High Lifter
    OUTLAW
    25x 9.5x12 --------------------- 11.57 кг
    25x12 x12---------------------- 14.29 кг
    26x10x12--------------------- 12.8кг
    26x12x12--------------------- 15.7кг
    27x9.5x12--------------------- 13.6кг
    27x12x12 --------------------- 15.9кг
    28x9.5x12---------------------- 14.2кг
    28x10.5x12--------------------- 15.3кг
    28x12.5x12--------------------- 17.4кг
    29.5x10x12--------------------- 17.1кг
    29.5x12x12 --------------------- 19.3кг
    31x9.5x14--------------------- 17.5кг
    31x11x14--------------------- 19.8кг
    Outlaw 2
    28 x 9.5 x 14 ---------------------- 17 кг
    28 x 11 x 14 --------------------- - 20 кг
    29.5 x 9.5 x 14 --------------------- - 20,32 кг
    29.5x 11 x 14 ---------------------- 23,50 кг
    Radial Outlaw
    27 x 9.5 x 14 ---------------------- 15.8 кг
    27 x 12 x 14 ---------------------- 17.2 кг
    28 x 9.5 x 14 --------------------- - 16.8 кг
    28 x 12 x 14 ---------------------- 17.7 кг
    30 x 10 x 14 ---------------------- 20.4 кг
    -------------------------------------------------------------------

    STORMBRINGER
    NOMO
    26х9-12---------------------10.1 кг
    26х10-12---------------------11.8 кг
    26х12-12---------------------12.5 кг
    27х9-12---------------------10,8 кг
    27х10-12---------------------11,4 кг
    27х12-12---------------------13,9 кг
    27х9-14---------------------11.2 кг
    27х11-14---------------------14.1 кг
    STORM
    26х9-12---------------------12.1 кг
    26х12-12---------------------14 кг
    27х9-12---------------------13.2 кг
    27х12-12---------------------15,7 кг

    -------------------------------------------------------------------
    Carlisle
    MUD WOLF
    25x8-12--------------------- 10,6кг
    25x11-12--------------------- 14 кг
    26x9-12 ---------------------12,8 кг
    26x12-12 ---------------------16,1 кг
    27x9-12--------------------- 14,1 кг
    27x12-12--------------------- 17,9 кг
    MUD WOLF XL
    26x9-14--------------------- 9,5 кг
    26x11-14 ---------------------12,6 кг
    ACT
    23x7-12--------------------- 6,5 кг
    23x10-12--------------------- 8,2 кг
    25x8-12 ---------------------8,2 кг
    25x11-12 ---------------------10,8 кг
    26x8-12 ---------------------7,8 кг
    26x10-12 ---------------------10,3 кг
    ACT HD
    25x8-12--------------------- 9,8 кг
    25x11-12--------------------- 12,5 кг
    26x9-12 ---------------------11,6 кг
    26x11-12--------------------- 13,8 кг
    27x9-12 ---------------------12 кг
    27x11-12 ---------------------14,4 кг
    BLACK ROCK
    25x8-12--------------------- 8,1 кг
    25x11-12 ---------------------9,2 кг
    26x9-12--------------------- 8,6 кг
    26x11-12 ---------------------10,5 кг
    27x9-14 ---------------------10,3 кг
    27x11-14 ---------------------12,1 кг
    AT489 X/L
    26x8-12--------------------- 7,8 кг
    26x11-12 ---------------------11 кг
    27x9-12--------------------- 8,6 кг
    27x11-12--------------------- 11,2 кг
    AT489 II
    26x8-14 ---------------------7,5 кг
    26x10-14---------------------9,8 кг
    ALL TRAIL
    25x8-12---------------------8,9 кг
    25x10.5-12---------------------12 кг
    -------------------------------------------------------------------
    CST
    Ancla
    25x8-12--------------------- 10,2 кг
    25x10-12---------------------10,8 кг
    25x11-12 ---------------------10.8 кг
    26x9-12--------------------- 11,2 кг
    26x11-12 ---------------------11.4 кг
    26x12-12 ---------------------11.6 кг
    -------------------------------------------------------------------
    SUN.F
    A-001
    21х7-10 --------------------- 5,5 кг
    22х10-10 --------------------- 7,6 кг
    A-003
    19х7.-8 --------------------- 4,74 кг
    19х9.5-8 --------------------- 5,9 кг
    A-004
    16х8-7 --------------------- 3,28 кг
    19х7-8 --------------------- 3,86 кг
    19х9.5-8 --------------------- 4,78 кг
    21х8.-10 --------------------- 5 кг
    22х10-10 --------------------- 6,98 кг
    A-024
    25х8-12 --------------------- 8,38 кг
    25х10-12--------------------- 10,92 кг
    A-027F
    22"*7-10 --------------------- 5,6 кг
    A-027R
    22х10-10 --------------------- 8 кг
    A-031F
    20х6-10 --------------------- 4,2 кг
    A-031R
    18х10-8 --------------------- 5,3 кг
    A-031R
    22х11-9 --------------------- 5 кг
    A-033
    24х11-10 --------------------- 11 кг
    25х8-12 --------------------- 9 кг
    25х10-12--------------------- 11,2 кг
    27х9-12--------------------- 12,2 кг
    27х12-12 --------------------- 15 кг
    27х9-14 --------------------- 13,6 кг
    27х11-14 --------------------- 15,1 кг
    A-043
    26х9-14 --------------------- 11,2 кг
    26х11-14 --------------------- 13,2 кг
     
    #1 Тимошка, 13 ноя 2012
    Последнее редактирование модератором: 25 май 2014
  2. Monarc

    СТАРОЖИЛ

    Вступление:
    13 янв 2012
    Сообщения:
    4.857
    Имя:
    Иван
    Квадрик:
    Can-Am Outlander 500
    Город: Москва
    Огромное спасибо, теперь смогу понять, что себе поставлю):Drinks:
     
  3. porosenok

    Партнер АТВ клуба СТАРОЖИЛ

    Вступление:
    11 янв 2007
    Сообщения:
    4.084
    Квадрик:
    Can-Am Commander 1000
    Город: Москва
    Предлагаю добавить:
    Carlisle
    MUD WOLF 25x8-12 10,6
    MUD WOLF 25x11-12 14
    MUD WOLF 26x9-12 12,8
    MUD WOLF 26x12-12 16,1
    MUD WOLF 27x9-12 14,1
    MUD WOLF 27x12-12 17,9
    MUD WOLF XL 26x9-14 9,5
    MUD WOLF XL 26x11-14 12,6
    ACT 23x7-R12 6,5
    ACT 23x10-R12 8,2
    ACT 25x8-R12 8,2
    ACT 25x11-R12 10,8
    ACT 26x8-R12 7,8
    ACT 26x10-R12 10,3
    ACT HD 25x8-R12 9,8
    ACT HD 25x11-R12 12,5
    ACT HD 26x9-R12 11,6
    ACT HD 26x11-R12 13,8
    ACT HD 27x9-R12 12
    ACT HD 27x11-R12 14,4
    BLACK ROCK 25x8-12 8,1
    BLACK ROCK 25x11-12 9,2
    BLACK ROCK 26x9-12 8,6
    BLACK ROCK 26x11-12 10,5
    BLACK ROCK 27x9-14 10,3
    BLACK ROCK 27x11-14 12,1
    AT489 X/L 26x8-12 7,8
    AT489 X/L 26x11-12 11
    AT489 X/L 27x9-12 8,6
    AT489 X/L 27x11-12 11,2
    AT489 II 26x8-14 7,5
    AT489 II 26x10-14 9,8
    ALL TRAIL 25x8-12 8,9
    ALL TRAIL 25x10.5-12 12
     
    kv2285, decapitated, Mr.FiX и 15 другим нравится это.
  4. Тимошка

    Тимошка Постоянный форумчанин

    Вступление:
    5 ноя 2011
    Сообщения:
    716
    Сделал:Drinks:
    Буду рад если у кого будут еще дополнения:Clapping:
     
    Alers999999 и porosenok нравится это.
  5. Ген

    СТАРОЖИЛ

    Вступление:
    11 мар 2008
    Сообщения:
    3.965
    Имя:
    Геннадий
    Квадрик:
    Polaris Sportsman 500 H. O. , Polaris Sportsman 850 , Polaris RZR S 800
    Город: Химки
    Вес резины не правильный а некоторым может действительно важна данная информация. Зачем вывешивать заведомо ложную информацию?
     
  6. porosenok

    Партнер АТВ клуба СТАРОЖИЛ

    Вступление:
    11 янв 2007
    Сообщения:
    4.084
    Квадрик:
    Can-Am Commander 1000
    Город: Москва
    И где неправильная информация?
     
  7. Тимошка

    Тимошка Постоянный форумчанин

    Вступление:
    5 ноя 2011
    Сообщения:
    716
    Я проверил выборочно несколько позиций все точно.
    Вот офф сайт производителя http://www.carlisletransportationproducts.com/
     
    porosenok нравится это.
  8. porosenok

    Партнер АТВ клуба СТАРОЖИЛ

    Вступление:
    11 янв 2007
    Сообщения:
    4.084
    Квадрик:
    Can-Am Commander 1000
    Город: Москва
    нет, опечатки конечно возможны, но данные с официальных сайтов мы перепроверяем выборочно. на складе есть весы для таких целей. еще когда в транспортных важен каждый килограмм, также перепроверяем :smile:
     
  9. Тимошка

    Тимошка Постоянный форумчанин

    Вступление:
    5 ноя 2011
    Сообщения:
    716
  10. 7007

    7007 Активный участник

    Вступление:
    12 сен 2012
    Сообщения:
    351
    Имя:
    Антон
    Полная лажа эта ТАБЛИЦА!
     
  11. Тимошка

    Тимошка Постоянный форумчанин

    Вступление:
    5 ноя 2011
    Сообщения:
    716
    Где именно лажа?Скажи,исправлю:smile:
     
  12. Воффка

    СТАРОЖИЛ

    Вступление:
    29 апр 2010
    Сообщения:
    1.001
    Имя:
    Владимир
    Квадрик:
    Yamaha Grizzly 700 EPS
    Город: Троицк
    Кенда Бир Клав 27 весит намного меньше! Вот здесь более точная таблица
    http://yadi.sk/d/98LRHphi0ZjjP
     
  13. Тимошка

    Тимошка Постоянный форумчанин

    Вступление:
    5 ноя 2011
    Сообщения:
    716
    А может потому что у меня кенда указана 6 слоев и данные с сайта кенды в америке!
    А вы взвешивали нашу кенду в России которая идет 4 слоя.
     
  14. Misterjeep

    СТАРОЖИЛ

    Вступление:
    16 мар 2011
    Сообщения:
    464
    Все верно у тебя в таблице. Молодец. Спасибо за старания. Теперь знаем где искать
     
    Тимошка нравится это.
  15. Тимошка

    Тимошка Постоянный форумчанин

    Вступление:
    5 ноя 2011
    Сообщения:
    716
    :smile::yes::yes:
     
  16. Тимошка

    Тимошка Постоянный форумчанин

    Вступление:
    5 ноя 2011
    Сообщения:
    716
    Добавил про шины SUN.F информация на сайте http://atvtyre.ru/
     
  17. element

    СТАРОЖИЛ

    Вступление:
    18 июл 2010
    Сообщения:
    4.900
    Имя:
    Александр
    Квадрик:
    - Нет - , - Нет -
    Тимошка, Отличная тема!:Good2: Мне кажется ее нужно поместить в "ВАЖНОЕ" что бы тема в низ не ушла.
     
  18. Тимошка

    Тимошка Постоянный форумчанин

    Вступление:
    5 ноя 2011
    Сообщения:
    716
    Это к админам:smile:
     
  19. Банщик

    ATV CLUB СТАРОЖИЛ

    Вступление:
    15 авг 2007
    Сообщения:
    4.185
    Имя:
    Александр
    Квадрик:
    Yamaha YFZ 450 R , Can-Am Outlander 1000 XTP
    Такая же таблица уже 2 года как висит в FAQ
     
  20. Тимошка

    Тимошка Постоянный форумчанин

    Вступление:
    5 ноя 2011
    Сообщения:
    716
    Я не отрицаю,что многие данные из той таблицы,но многой резины там нет!
     
    #20 Тимошка, 27 мар 2013
    Последнее редактирование модератором: 27 мар 2013

Поделиться этой страницей